  0
SECTION
  2
HEADER
  9
$ACADVER
  1
AC1015
  9
$ACADMAINTVER
 70
     6
  9
$DWGCODEPAGE
  3
ANSI_1254
  9
$INSBASE
 10
0.0
 20
0.0
 30
0.0
  9
$EXTMIN
 10
0.0
 20
0.0
 30
0.0
  9
$EXTMAX
 10
279.4
 20
215.9
 30
0.0
  9
$LIMMIN
 10
0.0
 20
0.0
  9
$LIMMAX
 10
279.4
 20
215.9
  9
$ORTHOMODE
 70
     0
  9
$REGENMODE
 70
     1
  9
$FILLMODE
 70
     1
  9
$QTEXTMODE
 70
     0
  9
$MIRRTEXT
 70
     1
  9
$LTSCALE
 40
1.0
  9
$ATTMODE
 70
     1
  9
$TEXTSIZE
 40
3.5
  9
$TRACEWID
 40
1.0
  9
$TEXTSTYLE
  7
Standard
  9
$CLAYER
  8
0
  9
$CELTYPE
  6
ByLayer
  9
$CECOLOR
 62
   256
  9
$CELTSCALE
 40
1.0
  9
$DISPSILH
 70
     0
  9
$DIMSCALE
 40
1.0
  9
$DIMASZ
 40
3.5
  9
$DIMEXO
 40
1.0
  9
$DIMDLI
 40
3.75
  9
$DIMRND
 40
0.0
  9
$DIMDLE
 40
0.0
  9
$DIMEXE
 40
1.0
  9
$DIMTP
 40
0.0
  9
$DIMTM
 40
0.0
  9
$DIMTXT
 40
3.5
  9
$DIMCEN
 40
2.5
  9
$DIMTSZ
 40
0.0
  9
$DIMTOL
 70
     0
  9
$DIMLIM
 70
     0
  9
$DIMTIH
 70
     1
  9
$DIMTOH
 70
     1
  9
$DIMSE1
 70
     0
  9
$DIMSE2
 70
     0
  9
$DIMTAD
 70
     1
  9
$DIMZIN
 70
     0
  9
$DIMBLK
  1

  9
$DIMASO
 70
     1
  9
$DIMSHO
 70
     1
  9
$DIMPOST
  1

  9
$DIMAPOST
  1

  9
$DIMALT
 70
     0
  9
$DIMALTD
 70
     3
  9
$DIMALTF
 40
0.0393700787
  9
$DIMLFAC
 40
1.0
  9
$DIMTOFL
 70
     1
  9
$DIMTVP
 40
0.0
  9
$DIMTIX
 70
     0
  9
$DIMSOXD
 70
     0
  9
$DIMSAH
 70
     0
  9
$DIMBLK1
  1

  9
$DIMBLK2
  1

  9
$DIMSTYLE
  2
ISO-25
  9
$DIMCLRD
 70
     0
  9
$DIMCLRE
 70
     0
  9
$DIMCLRT
 70
     0
  9
$DIMTFAC
 40
1.0
  9
$DIMGAP
 40
1.524
  9
$DIMJUST
 70
     0
  9
$DIMSD1
 70
     0
  9
$DIMSD2
 70
     0
  9
$DIMTOLJ
 70
     0
  9
$DIMTZIN
 70
     0
  9
$DIMALTZ
 70
     0
  9
$DIMALTTZ
 70
     0
  9
$DIMUPT
 70
     0
  9
$DIMDEC
 70
     2
  9
$DIMTDEC
 70
     2
  9
$DIMALTU
 70
     2
  9
$DIMALTTD
 70
     3
  9
$DIMTXSTY
  7
Standard
  9
$DIMAUNIT
 70
     0
  9
$DIMADEC
 70
     2
  9
$DIMALTRND
 40
0.0
  9
$DIMAZIN
 70
     0
  9
$DIMDSEP
 70
    44
  9
$DIMATFIT
 70
     3
  9
$DIMFRAC
 70
     0
  9
$DIMLDRBLK
  1

  9
$DIMLUNIT
 70
     2
  9
$DIMLWD
 70
    -2
  9
$DIMLWE
 70
    -2
  9
$DIMTMOVE
 70
     0
  9
$LUNITS
 70
     2
  9
$LUPREC
 70
     2
  9
$SKETCHINC
 40
1.0
  9
$FILLETRAD
 40
10.0
  9
$AUNITS
 70
     0
  9
$AUPREC
 70
     2
  9
$MENU
  1
.
  9
$ELEVATION
 40
0.0
  9
$PELEVATION
 40
0.0
  9
$THICKNESS
 40
0.0
  9
$LIMCHECK
 70
     0
  9
$CHAMFERA
 40
0.0
  9
$CHAMFERB
 40
0.0
  9
$CHAMFERC
 40
0.0
  9
$CHAMFERD
 40
0.0
  9
$SKPOLY
 70
     0
  9
$TDCREATE
 40
2460608.530286007
  9
$TDUCREATE
 40
2460608.405286007
  9
$TDUPDATE
 40
2460608.530286007
  9
$TDUUPDATE
 40
2460608.405286007
  9
$TDINDWG
 40
0.0000000116
  9
$TDUSRTIMER
 40
0.0000000116
  9
$USRTIMER
 70
     1
  9
$ANGBASE
 50
0.0
  9
$ANGDIR
 70
     0
  9
$PDMODE
 70
     0
  9
$PDSIZE
 40
-1.0
  9
$PLINEWID
 40
0.0
  9
$SPLFRAME
 70
     0
  9
$SPLINETYPE
 70
     6
  9
$SPLINESEGS
 70
     8
  9
$HANDSEED
  5
D2
  9
$SURFTAB1
 70
     6
  9
$SURFTAB2
 70
     6
  9
$SURFTYPE
 70
     6
  9
$SURFU
 70
     6
  9
$SURFV
 70
     6
  9
$UCSBASE
  2

  9
$UCSNAME
  2

  9
$UCSORG
 10
0.0
 20
0.0
 30
0.0
  9
$UCSXDIR
 10
1.0
 20
0.0
 30
0.0
  9
$UCSYDIR
 10
0.0
 20
1.0
 30
0.0
  9
$UCSORTHOREF
  2

  9
$UCSORTHOVIEW
 70
     0
  9
$UCSORGTOP
 10
0.0
 20
0.0
 30
0.0
  9
$UCSORGBOTTOM
 10
0.0
 20
0.0
 30
0.0
  9
$UCSORGLEFT
 10
0.0
 20
0.0
 30
0.0
  9
$UCSORGRIGHT
 10
0.0
 20
0.0
 30
0.0
  9
$UCSORGFRONT
 10
0.0
 20
0.0
 30
0.0
  9
$UCSORGBACK
 10
0.0
 20
0.0
 30
0.0
  9
$PUCSBASE
  2

  9
$PUCSNAME
  2

  9
$PUCSORG
 10
0.0
 20
0.0
 30
0.0
  9
$PUCSXDIR
 10
1.0
 20
0.0
 30
0.0
  9
$PUCSYDIR
 10
0.0
 20
1.0
 30
0.0
  9
$PUCSORTHOREF
  2

  9
$PUCSORTHOVIEW
 70
     0
  9
$PUCSORGTOP
 10
0.0
 20
0.0
 30
0.0
  9
$PUCSORGBOTTOM
 10
0.0
 20
0.0
 30
0.0
  9
$PUCSORGLEFT
 10
0.0
 20
0.0
 30
0.0
  9
$PUCSORGRIGHT
 10
0.0
 20
0.0
 30
0.0
  9
$PUCSORGFRONT
 10
0.0
 20
0.0
 30
0.0
  9
$PUCSORGBACK
 10
0.0
 20
0.0
 30
0.0
  9
$USERI1
 70
     0
  9
$USERI2
 70
     0
  9
$USERI3
 70
     0
  9
$USERI4
 70
     0
  9
$USERI5
 70
     0
  9
$USERR1
 40
0.0
  9
$USERR2
 40
0.0
  9
$USERR3
 40
0.0
  9
$USERR4
 40
0.0
  9
$USERR5
 40
0.0
  9
$WORLDVIEW
 70
     1
  9
$SHADEDGE
 70
     3
  9
$SHADEDIF
 70
    70
  9
$TILEMODE
 70
     1
  9
$MAXACTVP
 70
    64
  9
$PINSBASE
 10
0.0
 20
0.0
 30
0.0
  9
$PLIMCHECK
 70
     0
  9
$PEXTMIN
 10
1.0000000000E+20
 20
1.0000000000E+20
 30
1.0000000000E+20
  9
$PEXTMAX
 10
-1.0000000000E+20
 20
-1.0000000000E+20
 30
-1.0000000000E+20
  9
$PLIMMIN
 10
0.0
 20
0.0
  9
$PLIMMAX
 10
420.0
 20
297.0
  9
$UNITMODE
 70
     0
  9
$VISRETAIN
 70
     1
  9
$PLINEGEN
 70
     0
  9
$PSLTSCALE
 70
     1
  9
$TREEDEPTH
 70
  3020
  9
$CMLSTYLE
  2
Standard
  9
$CMLJUST
 70
     0
  9
$CMLSCALE
 40
20.0
  9
$PROXYGRAPHICS
 70
     1
  9
$MEASUREMENT
 70
     1
  9
$CELWEIGHT
370
    -1
  9
$ENDCAPS
280
     0
  9
$JOINSTYLE
280
     0
  9
$LWDISPLAY
290
     1
  9
$INSUNITS
 70
     4
  9
$HYPERLINKBASE
  1

  9
$STYLESHEET
  1

  9
$XEDIT
290
     1
  9
$CEPSNTYPE
380
     0
  9
$PSTYLEMODE
290
     1
  9
$FINGERPRINTGUID
  2
{6b2eabcc-e9a3-477d-a6e4-c607427ba299}
  9
$VERSIONGUID
  2
{FAEB1C32-E019-11D5-929B-00C0DF256EC4}
  9
$EXTNAMES
290
     1
  9
$PSVPSCALE
 40
0.0
  9
$OLESTARTUP
290
     0
  0
ENDSEC
  0
SECTION
  2
CLASSES
  0
CLASS
  1
ACDBDICTIONARYWDFLT
  2
AcDbDictionaryWithDefault
  3
ObjectDBX Classes
 90
        0
280
     0
281
     0
  0
CLASS
  1
VISUALSTYLE
  2
AcDbVisualStyle
  3
ObjectDBX Classes
 90
     4095
280
     0
281
     0
  0
CLASS
  1
MATERIAL
  2
AcDbMaterial
  3
ObjectDBX Classes
 90
     1153
280
     0
281
     0
  0
CLASS
  1
SCALE
  2
AcDbScale
  3
ObjectDBX Classes
 90
     1153
280
     0
281
     0
  0
CLASS
  1
TABLESTYLE
  2
AcDbTableStyle
  3
ObjectDBX Classes
 90
     4095
280
     0
281
     0
  0
CLASS
  1
MLEADERSTYLE
  2
AcDbMLeaderStyle
  3
ACDB_MLEADERSTYLE_CLASS
 90
     4095
280
     0
281
     0
  0
CLASS
  1
SUN
  2
AcDbSun
  3
SCENEOE
 90
     1153
280
     0
281
     0
  0
CLASS
  1
ACDBPLACEHOLDER
  2
AcDbPlaceHolder
  3
ObjectDBX Classes
 90
        0
280
     0
281
     0
  0
CLASS
  1
LAYOUT
  2
AcDbLayout
  3
ObjectDBX Classes
 90
        0
280
     0
281
     0
  0
ENDSEC
  0
SECTION
  2
TABLES
  0
TABLE
  2
VPORT
  5
8
330
0
100
AcDbSymbolTable
 70
     1
  0
VPORT
  5
29
330
8
100
AcDbSymbolTableRecord
100
AcDbViewportTableRecord
  2
*Active
 70
     0
 10
0.0
 20
0.0
 11
1.0
 21
1.0
 12
139.7
 22
107.95
 13
0.0
 23
0.0
 14
10.0
 24
10.0
 15
10.0
 25
10.0
 16
0.0
 26
0.0
 36
1.0
 17
0.0
 27
0.0
 37
0.0
 40
215.9
 41
1.2941176471
 42
50.0
 43
0.0
 44
0.0
 50
0.0
 51
0.0
 71
     0
 72
  2000
 73
     1
 74
     3
 75
     0
 76
     0
 77
     0
 78
     0
281
     0
 65
     1
110
0.0
120
0.0
130
0.0
111
1.0
121
0.0
131
0.0
112
0.0
122
1.0
132
0.0
 79
     0
146
0.0
  0
ENDTAB
  0
TABLE
  2
LTYPE
  5
5
330
0
100
AcDbSymbolTable
 70
     6
  0
LTYPE
  5
14
330
5
100
AcDbSymbolTableRecord
100
AcDbLinetypeTableRecord
  2
ByBlock
 70
     0
  3

 72
    65
 73
     0
 40
0.0
  0
LTYPE
  5
15
330
5
100
AcDbSymbolTableRecord
100
AcDbLinetypeTableRecord
  2
ByLayer
 70
     0
  3

 72
    65
 73
     0
 40
0.0
  0
LTYPE
  5
16
330
5
100
AcDbSymbolTableRecord
100
AcDbLinetypeTableRecord
  2
Continuous
 70
     0
  3
Solid line
 72
    65
 73
     0
 40
0.0
  0
LTYPE
  5
6E
330
5
100
AcDbSymbolTableRecord
100
AcDbLinetypeTableRecord
  2
HIDDEN
 70
     0
  3
Hidden __ __ __ __ __ __ __ __ __ __ __ __ __ __
 72
    65
 73
     2
 40
1.905
 49
1.27
 74
     0
 49
-0.635
 74
     0
  0
LTYPE
  5
6F
330
5
100
AcDbSymbolTableRecord
100
AcDbLinetypeTableRecord
  2
PHANTOM
 70
     0
  3
Phantom ______  __  __  ______  __  __  ______
 72
    65
 73
     6
 40
12.7
 49
6.35
 74
     0
 49
-1.27
 74
     0
 49
1.27
 74
     0
 49
-1.27
 74
     0
 49
1.27
 74
     0
 49
-1.27
 74
     0
  0
LTYPE
  5
70
330
5
100
AcDbSymbolTableRecord
100
AcDbLinetypeTableRecord
  2
CENTER
 70
     0
  3
Center ____ _ ____ _ ____ _ ____ _ ____ _ ____
 72
    65
 73
     4
 40
10.16
 49
6.35
 74
     0
 49
-1.27
 74
     0
 49
1.27
 74
     0
 49
-1.27
 74
     0
  0
LTYPE
  5
71
330
5
100
AcDbSymbolTableRecord
100
AcDbLinetypeTableRecord
  2
CENTERX2
 70
     0
  3
Center (2x) ________  __  ________  __  _____
 72
    65
 73
     4
 40
20.32
 49
12.7
 74
     0
 49
-2.54
 74
     0
 49
2.54
 74
     0
 49
-2.54
 74
     0
  0
LTYPE
  5
72
330
5
100
AcDbSymbolTableRecord
100
AcDbLinetypeTableRecord
  2
DOT2
 70
     0
  3
Dot (.5x) ........................................
 72
    65
 73
     2
 40
0.635
 49
0.0
 74
     0
 49
-0.635
 74
     0
  0
ENDTAB
  0
TABLE
  2
LAYER
  5
2
330
0
100
AcDbSymbolTable
 70
    17
  0
LAYER
  5
10
330
2
100
AcDbSymbolTableRecord
100
AcDbLayerTableRecord
  2
0
 70
     0
 62
     7
  6
Continuous
370
    -3
390
F
  0
LAYER
  5
73
330
2
100
AcDbSymbolTableRecord
100
AcDbLayerTableRecord
  2
FORMAT
 70
     0
 62
     7
  6
Continuous
370
    -3
390
F
  0
LAYER
  5
74
330
2
100
AcDbSymbolTableRecord
100
AcDbLayerTableRecord
  2
YARDIMCI_GEOMETRI
 70
     0
 62
    -6
  6
Continuous
290
     0
370
    -3
390
F
  0
LAYER
  5
75
330
2
100
AcDbSymbolTableRecord
100
AcDbLayerTableRecord
  2
SAYFA_CERCEVESI
 70
     0
 62
     7
  6
Continuous
370
    25
390
F
  0
LAYER
  5
76
330
2
100
AcDbSymbolTableRecord
100
AcDbLayerTableRecord
  2
ANTET
 70
     0
 62
     7
  6
Continuous
370
    -3
390
F
  0
LAYER
  5
77
330
2
100
AcDbSymbolTableRecord
100
AcDbLayerTableRecord
  2
OLCU
 70
     0
 62
   150
  6
Continuous
370
    -3
390
F
  0
LAYER
  5
78
330
2
100
AcDbSymbolTableRecord
100
AcDbLayerTableRecord
  2
METIN
 70
     0
 62
    96
  6
Continuous
370
    -3
390
F
  0
LAYER
  5
79
330
2
100
AcDbSymbolTableRecord
100
AcDbLayerTableRecord
  2
BALON
 70
     0
 62
     5
  6
Continuous
370
    -3
390
F
  0
LAYER
  5
7A
330
2
100
AcDbSymbolTableRecord
100
AcDbLayerTableRecord
  2
VURGU
 70
     0
 62
     7
  6
Continuous
370
    -3
390
F
  0
LAYER
  5
7B
330
2
100
AcDbSymbolTableRecord
100
AcDbLayerTableRecord
  2
SILIK
 70
     0
 62
     7
  6
Continuous
370
    -3
390
F
  0
LAYER
  5
7C
330
2
100
AcDbSymbolTableRecord
100
AcDbLayerTableRecord
  2
MODEL
 70
     0
 62
     7
  6
Continuous
370
    -3
390
F
  0
LAYER
  5
7D
330
2
100
AcDbSymbolTableRecord
100
AcDbLayerTableRecord
  2
DETAYLANDıRMA
 70
     0
 62
   190
  6
Continuous
370
    -3
390
F
  0
LAYER
  5
7E
330
2
100
AcDbSymbolTableRecord
100
AcDbLayerTableRecord
  2
TOLERANS
 70
     0
 62
   230
  6
Continuous
370
    -3
390
F
  0
LAYER
  5
7F
330
2
100
AcDbSymbolTableRecord
100
AcDbLayerTableRecord
  2
MERKEZ_CIZGILERI
 70
     0
 62
    30
  6
Continuous
370
    -3
390
F
  0
LAYER
  5
80
330
2
100
AcDbSymbolTableRecord
100
AcDbLayerTableRecord
  2
KESIT-DETAY_CIZGILERI
 70
     0
 62
     7
  6
Continuous
370
    -3
390
F
  0
LAYER
  5
81
330
2
100
AcDbSymbolTableRecord
100
AcDbLayerTableRecord
  2
\U+041E\U+0421\U+0415\U+0412\U+042B\U+0415
 70
     0
 62
     7
  6
Continuous
370
    -3
390
F
  0
LAYER
  5
82
330
2
100
AcDbSymbolTableRecord
100
AcDbLayerTableRecord
  2
\U+0412\U+041E\U+0414\U+042F\U+041D\U+042B\U+0415_\U+0417\U+041D\U+0410\U+041A\U+0418
 70
     0
 62
    11
  6
Continuous
370
    -3
390
F
  0
ENDTAB
  0
TABLE
  2
STYLE
  5
3
330
0
100
AcDbSymbolTable
 70
     1
  0
STYLE
  5
11
330
3
100
AcDbSymbolTableRecord
100
AcDbTextStyleTableRecord
  2
Standard
 70
     0
 40
0.0
 41
1.0
 50
0.0
 71
     0
 42
3.5
  3
txt
  4

  0
ENDTAB
  0
TABLE
  2
VIEW
  5
6
330
0
100
AcDbSymbolTable
 70
     0
  0
ENDTAB
  0
TABLE
  2
UCS
  5
7
330
0
100
AcDbSymbolTable
 70
     0
  0
ENDTAB
  0
TABLE
  2
APPID
  5
9
330
0
100
AcDbSymbolTable
 70
     1
  0
APPID
  5
12
330
9
100
AcDbSymbolTableRecord
100
AcDbRegAppTableRecord
  2
ACAD
 70
     0
  0
ENDTAB
  0
TABLE
  2
DIMSTYLE
  5
A
330
0
100
AcDbSymbolTable
 70
     1
100
AcDbDimStyleTable
  0
DIMSTYLE
105
27
330
A
100
AcDbSymbolTableRecord
100
AcDbDimStyleTableRecord
  2
ISO-25
 70
     0
 41
2.5
 42
0.625
 43
3.75
 44
1.25
 73
     0
 74
     0
 77
     1
 78
     8
140
2.5
141
2.5
143
0.0393700787
147
0.625
171
     3
172
     1
178
     0
271
     2
272
     2
274
     3
278
    44
283
     0
284
     8
340
11
  0
ENDTAB
  0
TABLE
  2
BLOCK_RECORD
  5
1
330
0
100
AcDbSymbolTable
 70
     3
  0
BLOCK_RECORD
  5
1F
330
1
100
AcDbSymbolTableRecord
100
AcDbBlockTableRecord
  2
*Model_Space
340
22
  0
BLOCK_RECORD
  5
1B
330
1
100
AcDbSymbolTableRecord
100
AcDbBlockTableRecord
  2
*Paper_Space
340
1E
  0
BLOCK_RECORD
  5
23
330
1
100
AcDbSymbolTableRecord
100
AcDbBlockTableRecord
  2
*Paper_Space0
340
26
  0
BLOCK_RECORD
  5
88
330
1
100
AcDbSymbolTableRecord
100
AcDbBlockTableRecord
  2
SW_CENTERMARKSYMBOL_0
340
0
102
{BLKREFS
331
93
102
}
  0
BLOCK_RECORD
  5
9E
330
1
100
AcDbSymbolTableRecord
100
AcDbBlockTableRecord
  2
SW_CENTERMARKSYMBOL_1
340
0
102
{BLKREFS
331
A9
102
}
  0
ENDTAB
  0
ENDSEC
  0
SECTION
  2
BLOCKS
  0
BLOCK
  5
20
330
1F
100
AcDbEntity
  8
0
100
AcDbBlockBegin
  2
*Model_Space
 70
     0
 10
0.0
 20
0.0
 30
0.0
  3
*Model_Space
  1

  0
ENDBLK
  5
21
330
1F
100
AcDbEntity
  8
0
100
AcDbBlockEnd
  0
BLOCK
  5
1C
330
1B
100
AcDbEntity
 67
     1
  8
0
100
AcDbBlockBegin
  2
*Paper_Space
 70
     0
 10
0.0
 20
0.0
 30
0.0
  3
*Paper_Space
  1

  0
ENDBLK
  5
1D
330
1B
100
AcDbEntity
 67
     1
  8
0
100
AcDbBlockEnd
  0
BLOCK
  5
24
330
23
100
AcDbEntity
  8
0
100
AcDbBlockBegin
  2
*Paper_Space0
 70
     0
 10
0.0
 20
0.0
 30
0.0
  3
*Paper_Space0
  1

  0
ENDBLK
  5
25
330
23
100
AcDbEntity
  8
0
100
AcDbBlockEnd
  0
BLOCK
  5
89
330
88
100
AcDbEntity
  8
0
100
AcDbBlockBegin
  2
SW_CENTERMARKSYMBOL_0
 70
     0
 10
0.0
 20
0.0
 30
0.0
  3
SW_CENTERMARKSYMBOL_0
  1

  0
LINE
  5
8B
330
88
100
AcDbEntity
  8
FORMAT
 62
     0
100
AcDbLine
 10
0.0
 20
0.0
 30
0.0
 11
0.0
 21
2.5
 31
0.0
  0
LINE
  5
8C
330
88
100
AcDbEntity
  8
FORMAT
 62
     0
100
AcDbLine
 10
0.0
 20
0.0
 30
0.0
 11
-2.5
 21
0.0
 31
0.0
  0
LINE
  5
8D
330
88
100
AcDbEntity
  8
FORMAT
 62
     0
100
AcDbLine
 10
0.0
 20
0.0
 30
0.0
 11
0.0
 21
-2.5
 31
0.0
  0
LINE
  5
8E
330
88
100
AcDbEntity
  8
FORMAT
 62
     0
100
AcDbLine
 10
0.0
 20
0.0
 30
0.0
 11
2.5
 21
0.0
 31
0.0
  0
LINE
  5
8F
330
88
100
AcDbEntity
  8
FORMAT
 62
     0
100
AcDbLine
 10
0.0
 20
5.0
 30
0.0
 11
0.0
 21
40.0
 31
0.0
  0
LINE
  5
90
330
88
100
AcDbEntity
  8
FORMAT
 62
     0
100
AcDbLine
 10
-5.0
 20
0.0
 30
0.0
 11
-40.0
 21
0.0
 31
0.0
  0
LINE
  5
91
330
88
100
AcDbEntity
  8
FORMAT
 62
     0
100
AcDbLine
 10
0.0
 20
-5.0
 30
0.0
 11
0.0
 21
-40.0
 31
0.0
  0
LINE
  5
92
330
88
100
AcDbEntity
  8
FORMAT
 62
     0
100
AcDbLine
 10
5.0
 20
0.0
 30
0.0
 11
40.0
 21
0.0
 31
0.0
  0
ENDBLK
  5
8A
330
88
100
AcDbEntity
  8
0
100
AcDbBlockEnd
  0
BLOCK
  5
9F
330
9E
100
AcDbEntity
  8
0
100
AcDbBlockBegin
  2
SW_CENTERMARKSYMBOL_1
 70
     0
 10
0.0
 20
0.0
 30
0.0
  3
SW_CENTERMARKSYMBOL_1
  1

  0
LINE
  5
A1
330
9E
100
AcDbEntity
  8
FORMAT
 62
     0
100
AcDbLine
 10
0.0
 20
0.0
 30
0.0
 11
0.0
 21
2.5
 31
0.0
  0
LINE
  5
A2
330
9E
100
AcDbEntity
  8
FORMAT
 62
     0
100
AcDbLine
 10
0.0
 20
0.0
 30
0.0
 11
-2.5
 21
0.0
 31
0.0
  0
LINE
  5
A3
330
9E
100
AcDbEntity
  8
FORMAT
 62
     0
100
AcDbLine
 10
0.0
 20
0.0
 30
0.0
 11
0.0
 21
-2.5
 31
0.0
  0
LINE
  5
A4
330
9E
100
AcDbEntity
  8
FORMAT
 62
     0
100
AcDbLine
 10
0.0
 20
0.0
 30
0.0
 11
2.5
 21
0.0
 31
0.0
  0
LINE
  5
A5
330
9E
100
AcDbEntity
  8
FORMAT
 62
     0
100
AcDbLine
 10
0.0
 20
5.0
 30
0.0
 11
0.0
 21
40.0
 31
0.0
  0
LINE
  5
A6
330
9E
100
AcDbEntity
  8
FORMAT
 62
     0
100
AcDbLine
 10
-5.0
 20
0.0
 30
0.0
 11
-40.0
 21
0.0
 31
0.0
  0
LINE
  5
A7
330
9E
100
AcDbEntity
  8
FORMAT
 62
     0
100
AcDbLine
 10
0.0
 20
-5.0
 30
0.0
 11
0.0
 21
-40.0
 31
0.0
  0
LINE
  5
A8
330
9E
100
AcDbEntity
  8
FORMAT
 62
     0
100
AcDbLine
 10
5.0
 20
0.0
 30
0.0
 11
40.0
 21
0.0
 31
0.0
  0
ENDBLK
  5
A0
330
9E
100
AcDbEntity
  8
0
100
AcDbBlockEnd
  0
ENDSEC
  0
SECTION
  2
ENTITIES
  0
LINE
  5
83
330
1F
100
AcDbEntity
  8
0
  6
Continuous
 62
     7
370
    25
100
AcDbLine
 10
98.6903149275
 20
66.750935966
 30
0.0
 11
228.6903149275
 21
66.750935966
 31
0.0
  0
LINE
  5
84
330
1F
100
AcDbEntity
  8
0
  6
Continuous
 62
     7
370
    25
100
AcDbLine
 10
228.6903149275
 20
141.750935966
 30
0.0
 11
98.6903149275
 21
141.750935966
 31
0.0
  0
CIRCLE
  5
85
330
1F
100
AcDbEntity
  8
0
  6
Continuous
 62
     7
370
    25
100
AcDbCircle
 10
98.6903149275
 20
104.250935966
 30
0.0
 40
30.7
  0
CIRCLE
  5
86
330
1F
100
AcDbEntity
  8
0
  6
Continuous
 62
     7
370
    25
100
AcDbCircle
 10
98.6903149275
 20
104.250935966
 30
0.0
 40
37.50000000000001
  0
LINE
  5
87
330
1F
100
AcDbEntity
  8
0
  6
Continuous
 62
     7
370
    25
100
AcDbLine
 10
228.6903149275
 20
141.750935966
 30
0.0
 11
228.6903149275
 21
66.750935966
 31
0.0
  0
INSERT
  5
93
330
1F
100
AcDbEntity
  8
FORMAT
 62
     7
100
AcDbBlockReference
  2
SW_CENTERMARKSYMBOL_0
 10
98.6903149275
 20
104.250935966
 30
0.0
  0
LINE
  5
94
330
1F
100
AcDbEntity
  8
0
  6
Continuous
 62
     7
370
    25
100
AcDbLine
 10
-159.8649569015
 20
141.750935966
 30
0.0
 11
-290.3649569015
 21
141.750935966
 31
0.0
  0
LINE
  5
95
330
1F
100
AcDbEntity
  8
0
  6
Continuous
 62
     7
370
    25
100
AcDbLine
 10
-29.3649569015
 20
141.750935966
 30
0.0
 11
-159.8649569015
 21
141.750935966
 31
0.0
  0
LINE
  5
96
330
1F
100
AcDbEntity
  8
0
  6
Continuous
 62
     7
370
    25
100
AcDbLine
 10
-159.8649569015
 20
66.750935966
 30
0.0
 11
-29.3649569015
 21
66.750935966
 31
0.0
  0
LINE
  5
97
330
1F
100
AcDbEntity
  8
0
  6
Continuous
 62
     7
370
    25
100
AcDbLine
 10
-290.3649569015
 20
66.750935966
 30
0.0
 11
-159.8649569015
 21
66.750935966
 31
0.0
  0
CIRCLE
  5
98
330
1F
100
AcDbEntity
  8
0
  6
Continuous
 62
     7
370
    25
100
AcDbCircle
 10
-159.8649569015
 20
104.250935966
 30
0.0
 40
30.69999999999999
  0
CIRCLE
  5
99
330
1F
100
AcDbEntity
  8
0
  6
Continuous
 62
     7
370
    25
100
AcDbCircle
 10
-159.8649569015
 20
104.250935966
 30
0.0
 40
37.5
  0
LINE
  5
9A
330
1F
100
AcDbEntity
  8
0
  6
Continuous
 62
     7
370
    25
100
AcDbLine
 10
-290.3649569015
 20
104.250935966
 30
0.0
 11
-290.3649569015
 21
141.750935966
 31
0.0
  0
LINE
  5
9B
330
1F
100
AcDbEntity
  8
0
  6
Continuous
 62
     7
370
    25
100
AcDbLine
 10
-290.3649569015
 20
66.750935966
 30
0.0
 11
-290.3649569015
 21
104.250935966
 31
0.0
  0
LINE
  5
9C
330
1F
100
AcDbEntity
  8
0
  6
Continuous
 62
     7
370
    25
100
AcDbLine
 10
-29.3649569015
 20
104.250935966
 30
0.0
 11
-29.3649569015
 21
141.750935966
 31
0.0
  0
LINE
  5
9D
330
1F
100
AcDbEntity
  8
0
  6
Continuous
 62
     7
370
    25
100
AcDbLine
 10
-29.3649569015
 20
66.750935966
 30
0.0
 11
-29.3649569015
 21
104.250935966
 31
0.0
  0
INSERT
  5
A9
330
1F
100
AcDbEntity
  8
FORMAT
 62
     7
100
AcDbBlockReference
  2
SW_CENTERMARKSYMBOL_1
 10
-159.8649569015
 20
104.250935966
 30
0.0
  0
LINE
  5
AA
330
1F
100
AcDbEntity
  8
0
  6
Continuous
 62
     7
370
    25
100
AcDbLine
 10
136.1903149275
 20
395.5053709272
 30
0.0
 11
136.1903149275
 21
488.5053709272
 31
0.0
  0
LINE
  5
AB
330
1F
100
AcDbEntity
  8
0
  6
Continuous
 62
     7
370
    25
100
AcDbLine
 10
136.1903149275
 20
227.5053709272
 30
0.0
 11
136.1903149275
 21
320.5053709272
 31
0.0
  0
LINE
  5
AC
330
1F
100
AcDbEntity
  8
0
  6
Continuous
 62
     7
370
    25
100
AcDbLine
 10
61.1903149275
 20
488.5053709272
 30
0.0
 11
61.1903149275
 21
227.5053709272
 31
0.0
  0
LINE
  5
AD
330
1F
100
AcDbEntity
  8
0
  6
Continuous
 62
     7
370
    25
100
AcDbLine
 10
136.1903149275
 20
320.5053709272
 30
0.0
 11
228.6903149275
 21
320.5053709272
 31
0.0
  0
LINE
  5
AE
330
1F
100
AcDbEntity
  8
0
  6
Continuous
 62
     7
370
    25
100
AcDbLine
 10
228.6903149275
 20
395.5053709272
 30
0.0
 11
136.1903149275
 21
395.5053709272
 31
0.0
  0
LINE
  5
AF
330
1F
100
AcDbEntity
  8
0
  6
Continuous
 62
     7
370
    25
100
AcDbLine
 10
136.1903149275
 20
395.5053709272
 30
0.0
 11
98.6903149275
 21
358.0053709272
 31
0.0
  0
LINE
  5
B0
330
1F
100
AcDbEntity
  8
0
  6
Continuous
 62
     7
370
    25
100
AcDbLine
 10
98.6903149275
 20
358.0053709272
 30
0.0
 11
136.1903149275
 21
320.5053709272
 31
0.0
  0
LINE
  5
B1
330
1F
100
AcDbEntity
  8
0
  6
Continuous
 62
     7
370
    25
100
AcDbLine
 10
61.1903149275
 20
488.5053709272
 30
0.0
 11
136.1903149275
 21
488.5053709272
 31
0.0
  0
LINE
  5
B2
330
1F
100
AcDbEntity
  8
0
  6
Continuous
 62
     7
370
    25
100
AcDbLine
 10
61.1903149275
 20
227.5053709272
 30
0.0
 11
136.1903149275
 21
227.5053709272
 31
0.0
  0
LINE
  5
B3
330
1F
100
AcDbEntity
  8
0
  6
Continuous
 62
     7
370
    25
100
AcDbLine
 10
228.6903149275
 20
395.5053709272
 30
0.0
 11
228.6903149275
 21
320.5053709272
 31
0.0
  0
LINE
  5
B4
330
1F
100
AcDbEntity
  8
0
  6
Continuous
 62
     7
370
    25
100
AcDbLine
 10
434.0106958292
 20
66.750935966
 30
0.0
 11
564.5106958292
 21
66.750935966
 31
0.0
  0
LINE
  5
B5
330
1F
100
AcDbEntity
  8
0
  6
Continuous
 62
     7
370
    25
100
AcDbLine
 10
303.5106958292
 20
66.750935966
 30
0.0
 11
434.0106958292
 21
66.750935966
 31
0.0
  0
LINE
  5
B6
330
1F
100
AcDbEntity
  8
0
  6
Continuous
 62
     7
370
    25
100
AcDbLine
 10
434.0106958292
 20
141.750935966
 30
0.0
 11
303.5106958292
 21
141.750935966
 31
0.0
  0
LINE
  5
B7
330
1F
100
AcDbEntity
  8
0
  6
Continuous
 62
     7
370
    25
100
AcDbLine
 10
564.5106958292
 20
141.750935966
 30
0.0
 11
434.0106958292
 21
141.750935966
 31
0.0
  0
LINE
  5
B8
330
1F
100
AcDbEntity
  8
0
  6
Continuous
 62
     7
370
    25
100
AcDbLine
 10
564.5106958292
 20
141.750935966
 30
0.0
 11
564.5106958292
 21
66.750935966
 31
0.0
  0
LINE
  5
B9
330
1F
100
AcDbEntity
  8
0
  6
Continuous
 62
     7
370
    25
100
AcDbLine
 10
303.5106958292
 20
141.750935966
 30
0.0
 11
303.5106958292
 21
66.750935966
 31
0.0
  0
LINE
  5
BA
330
1F
100
AcDbEntity
  8
0
  6
Continuous
 62
     7
370
    25
100
AcDbLine
 10
61.1903149275
 20
6.078235609
 30
0.0
 11
61.1903149275
 21
-254.921764391
 31
0.0
  0
LINE
  5
BB
330
1F
100
AcDbEntity
  8
0
  6
Continuous
 62
     7
370
    25
100
AcDbLine
 10
136.1903149275
 20
-86.921764391
 30
0.0
 11
136.1903149275
 21
6.078235609
 31
0.0
  0
LINE
  5
BC
330
1F
100
AcDbEntity
  8
0
  6
Continuous
 62
     7
370
    25
100
AcDbLine
 10
136.1903149275
 20
-254.921764391
 30
0.0
 11
136.1903149275
 21
-161.921764391
 31
0.0
  0
LINE
  5
BD
330
1F
100
AcDbEntity
  8
0
  6
Continuous
 62
     7
370
    25
100
AcDbLine
 10
136.1903149275
 20
-161.921764391
 30
0.0
 11
228.6903149275
 21
-161.921764391
 31
0.0
  0
LINE
  5
BE
330
1F
100
AcDbEntity
  8
0
  6
Continuous
 62
     7
370
    25
100
AcDbLine
 10
228.6903149275
 20
-86.921764391
 30
0.0
 11
136.1903149275
 21
-86.921764391
 31
0.0
  0
LINE
  5
BF
330
1F
100
AcDbEntity
  8
0
  6
Continuous
 62
     7
370
    25
100
AcDbLine
 10
98.6903149275
 20
-124.421764391
 30
0.0
 11
136.1903149275
 21
-161.921764391
 31
0.0
  0
LINE
  5
C0
330
1F
100
AcDbEntity
  8
0
  6
Continuous
 62
     7
370
    25
100
AcDbLine
 10
136.1903149275
 20
-86.921764391
 30
0.0
 11
98.6903149275
 21
-124.421764391
 31
0.0
  0
LINE
  5
C1
330
1F
100
AcDbEntity
  8
0
  6
Continuous
 62
     7
370
    25
100
AcDbLine
 10
136.1903149275
 20
-254.921764391
 30
0.0
 11
61.1903149275
 21
-254.921764391
 31
0.0
  0
LINE
  5
C2
330
1F
100
AcDbEntity
  8
0
  6
Continuous
 62
     7
370
    25
100
AcDbLine
 10
136.1903149275
 20
6.078235609
 30
0.0
 11
61.1903149275
 21
6.078235609
 31
0.0
  0
LINE
  5
C3
330
1F
100
AcDbEntity
  8
0
  6
Continuous
 62
     7
370
    25
100
AcDbLine
 10
228.6903149275
 20
-86.921764391
 30
0.0
 11
228.6903149275
 21
-161.921764391
 31
0.0
  0
LINE
  5
C4
330
1F
100
AcDbEntity
  8
0
  6
Continuous
 62
     7
370
    25
100
AcDbLine
 10
420.2346651965
 20
-76.9079233048
 30
0.0
 11
346.7057064886
 21
-34.4605589602
 31
0.0
  0
LINE
  5
C5
330
1F
100
AcDbEntity
  8
0
  6
Continuous
 62
     7
370
    25
100
AcDbLine
 10
531.2605763782
 20
-141.0018175531
 30
0.0
 11
495.2407607441
 21
-120.2080205959
 31
0.0
  0
LINE
  5
C6
330
1F
100
AcDbEntity
  8
0
  6
Continuous
 62
     7
370
    25
100
AcDbLine
 10
309.2087540147
 20
-99.4142236388
 30
0.0
 11
493.7636239044
 21
-205.9554822316
 31
0.0
  0
LINE
  5
C7
330
1F
100
AcDbEntity
  8
0
  6
Continuous
 62
     7
370
    25
100
AcDbLine
 10
457.7316176703
 20
-141.8615879833
 30
0.0
 11
530.9070229877
 21
-99.6183256667
 31
0.0
  0
LINE
  5
C8
330
1F
100
AcDbEntity
  8
0
  6
Continuous
 62
     7
370
    25
100
AcDbLine
 10
493.4100705138
 20
-34.6646609882
 30
0.0
 11
420.2346651965
 21
-76.9079233048
 31
0.0
  0
LINE
  5
C9
330
1F
100
AcDbEntity
  8
0
  6
Continuous
 62
     7
370
    25
100
AcDbLine
 10
420.2346651965
 20
-76.9079233048
 30
0.0
 11
420.2346651965
 21
-150.8283010416
 31
0.0
  0
ELLIPSE
  5
CA
330
1F
100
AcDbEntity
  8
0
  6
Continuous
 62
     7
370
    25
100
AcDbEllipse
 10
420.2346651965
 20
-120.2080205959
 30
0.0
 11
53.03300858899104
 21
7.105427357601002E-14
 31
0.0
210
0.0
220
0.0
230
1.0
 40
0.5773815452
 41
4.712388980384697
 42
5.497705879720051
  0
LWPOLYLINE
  5
CB
330
1F
100
AcDbEntity
  8
0
  6
Continuous
 62
     7
370
    25
100
AcDbPolyline
 90
       83
 70
   128
 43
0.0
 10
354.4737345461
 20
-51.6297392028
 10
354.3959298506
 20
-49.3306953077
 10
354.162972353
 20
-47.1349745057
 10
353.7762291404
 20
-45.0554621595
 10
353.2379697759
 20
-43.1043616745
 10
352.5513529794
 20
-41.2931228841
 10
351.7204080914
 20
-39.6323748577
 10
350.7500114267
 20
-38.1318635252
 10
349.645857659
 20
-36.8003944837
 10
348.4144264015
 20
-35.6457813229
 10
347.0629441826
 20
-34.6747997721
 10
345.5993420373
 20
-33.893147937
 10
344.032208965
 20
-33.3054128614
 10
342.3707415256
 20
-32.9150436084
 10
340.6246898708
 20
-32.7243310201
 10
338.8043005259
 20
-32.7343942738
 10
336.9202562596
 20
-32.9451743142
 10
334.9836133926
 20
-33.3554342003
 10
333.0057369154
 20
-33.9627663639
 10
330.9982337937
 20
-34.7636067384
 10
328.972884854
 20
-35.7532556741
 10
326.9415756492
 20
-36.9259055175
 10
324.9162267095
 20
-38.274674693
 10
322.9087235878
 20
-39.7916480867
 10
320.9308471107
 20
-41.4679234956
 10
318.9942042437
 20
-43.2936638692
 10
317.1101599773
 20
-45.2581550367
 10
315.2897706325
 20
-47.3498685831
 10
313.5437189777
 20
-49.5565295014
 10
311.8822515383
 20
-51.8651882279
 10
310.3151184659
 20
-54.2622966352
 10
308.8515163206
 20
-56.7337875381
 10
307.5000341017
 20
-59.2651572451
 10
306.2686028443
 20
-61.8415506722
 10
305.1644490765
 20
-64.4478485185
 10
304.1940524119
 20
-67.0687559917
 10
303.3631075238
 20
-69.6888925646
 10
302.6764907273
 20
-72.2928822341
 10
302.1382313628
 20
-74.8654437532
 10
301.7514881503
 20
-77.3914803081
 10
301.5185306526
 20
-79.8561681118
 10
301.4407259571
 20
-82.2450433962
 10
301.5185306526
 20
-84.5440872913
 10
301.7514881503
 20
-86.7398080933
 10
302.1382313628
 20
-88.8193204395
 10
302.6764907273
 20
-90.7704209245
 10
303.3631075238
 20
-92.5816597149
 10
304.1940524119
 20
-94.2424077413
 10
305.1644490765
 20
-95.7429190738
 10
306.2686028443
 20
-97.0743881153
 10
307.5000341017
 20
-98.2290012761
 10
308.8515163206
 20
-99.1999828269
 10
310.3151184659
 20
-99.981634662
 10
311.8822515383
 20
-100.5693697376
 10
313.5437189777
 20
-100.9597389906
 10
315.2897706325
 20
-101.1504515789
 10
317.1101599773
 20
-101.1403883252
 10
318.9942042437
 20
-100.9296082848
 10
320.9308471107
 20
-100.5193483987
 10
322.9087235878
 20
-99.9120162351
 10
324.9162267095
 20
-99.1111758606
 10
326.9415756492
 20
-98.1215269249
 10
328.972884854
 20
-96.9488770815
 10
330.9982337937
 20
-95.600107906
 10
333.0057369154
 20
-94.0831345123
 10
334.9836133926
 20
-92.4068591034
 10
336.9202562596
 20
-90.5811187298
 10
338.8043005259
 20
-88.6166275623
 10
340.6246898708
 20
-86.5249140159
 10
342.3707415256
 20
-84.3182530976
 10
344.032208965
 20
-82.0095943711
 10
345.5993420373
 20
-79.6124859638
 10
347.0629441826
 20
-77.1409950609
 10
348.4144264015
 20
-74.6096253539
 10
349.645857659
 20
-72.0332319268
 10
350.7500114267
 20
-69.4269340805
 10
351.7204080914
 20
-66.8060266073
 10
352.5513529794
 20
-64.1858900344
 10
353.2379697759
 20
-61.5819003649
 10
353.7762291404
 20
-59.0093388458
 10
354.162972353
 20
-56.4833022909
 10
354.3959298506
 20
-54.0186144872
 10
354.4737345461
 20
-51.6297392028
  0
LWPOLYLINE
  5
CC
330
1F
100
AcDbEntity
  8
0
  6
Continuous
 62
     7
370
    25
100
AcDbPolyline
 90
       12
 70
   128
 43
0.0
 10
539.0286044358
 20
-158.1709977957
 10
538.9507997403
 20
-155.8719539006
 10
538.7178422427
 20
-153.6762330986
 10
538.3310990301
 20
-151.5967207524
 10
537.7928396656
 20
-149.6456202673
 10
537.1062228691
 20
-147.8343814769
 10
536.2752779811
 20
-146.1736334506
 10
535.3048813164
 20
-144.6731221181
 10
534.2007275487
 20
-143.3416530765
 10
532.9692962912
 20
-142.1870399158
 10
531.6178140723
 20
-141.2160583649
 10
531.2605763782
 20
-141.0018175531
  0
LWPOLYLINE
  5
CD
330
1F
100
AcDbEntity
  8
0
  6
Continuous
 62
     7
370
    25
100
AcDbPolyline
 90
       32
 70
   128
 43
0.0
 10
493.7636239044
 20
-205.9554822316
 10
494.8699883556
 20
-206.5228932549
 10
496.437121428
 20
-207.1106283305
 10
498.0985888674
 20
-207.5009975834
 10
499.8446405222
 20
-207.6917101717
 10
501.665029867
 20
-207.6816469181
 10
503.5490741334
 20
-207.4708668777
 10
505.4857170004
 20
-207.0606069916
 10
507.4635934775
 20
-206.453274828
 10
509.4710965992
 20
-205.6524344534
 10
511.4964455389
 20
-204.6627855177
 10
513.5277547437
 20
-203.4901356744
 10
515.5531036834
 20
-202.1413664989
 10
517.5606068051
 20
-200.6243931052
 10
519.5384832823
 20
-198.9481176962
 10
521.4751261492
 20
-197.1223773227
 10
523.3591704156
 20
-195.1578861551
 10
525.1795597605
 20
-193.0661726088
 10
526.9256114153
 20
-190.8595116905
 10
528.5870788546
 20
-188.550852964
 10
530.154211927
 20
-186.1537445567
 10
531.6178140723
 20
-183.6822536538
 10
532.9692962912
 20
-181.1508839468
 10
534.2007275487
 20
-178.5744905196
 10
535.3048813164
 20
-175.9681926734
 10
536.2752779811
 20
-173.3472852002
 10
537.1062228691
 20
-170.7271486272
 10
537.7928396656
 20
-168.1231589578
 10
538.3310990301
 20
-165.5505974387
 10
538.7178422427
 20
-163.0245608838
 10
538.9507997403
 20
-160.5598730801
 10
539.0286044358
 20
-158.1709977957
  0
LWPOLYLINE
  5
CE
330
1F
100
AcDbEntity
  8
0
  6
Continuous
 62
     7
370
    25
100
AcDbPolyline
 90
       75
 70
   128
 43
0.0
 10
349.6654084341
 20
-54.405526783
 10
349.5872044734
 20
-52.3247747669
 10
349.3531560529
 20
-50.3493069878
 10
348.9649494967
 20
-48.4933567362
 10
348.4253818419
 20
-46.7702961763
 10
347.7383406859
 20
-45.1925399989
 10
346.9087761759
 20
-43.7714559734
 10
345.9426653433
 20
-42.5172830428
 10
344.8469690387
 20
-41.4390575517
 10
343.6295817791
 20
-40.5445481396
 10
342.2992748676
 20
-39.8401997673
 10
340.865633196
 20
-39.3310872808
 10
339.3389861854
 20
-39.0208788475
 10
337.7303333625
 20
-38.911809526
 10
336.0512651078
 20
-39.0046651634
 10
334.3138791464
 20
-39.2987767327
 10
332.530693384
 20
-39.7920251533
 10
330.714555715
 20
-40.4808565591
 10
328.8785514529
 20
-41.3603079038
 10
327.0359090504
 20
-42.4240427206
 10
325.1999047882
 20
-43.6643967756
 10
323.3837671192
 20
-45.0724332894
 10
321.6005813569
 20
-46.6380073267
 10
319.8631953955
 20
-48.3498388907
 10
318.1841271407
 20
-50.1955941957
 10
316.5754743178
 20
-52.1619745325
 10
315.0488273072
 20
-54.2348120857
 10
313.6151856357
 20
-56.3991720132
 10
312.2848787242
 20
-58.6394600522
 10
311.0674914646
 20
-60.9395348759
 10
309.97179516
 20
-63.2828243926
 10
309.0056843274
 20
-65.6524451476
 10
308.1761198174
 20
-68.0313239691
 10
307.4890786614
 20
-70.4023209806
 10
306.9495110066
 20
-72.7483530944
 10
306.5613044504
 20
-75.0525170953
 10
306.3272560298
 20
-77.2982114289
 10
306.2490520692
 20
-79.469255816
 10
306.3272560298
 20
-81.5500078321
 10
306.5613044504
 20
-83.5254756112
 10
306.9495110066
 20
-85.3814258628
 10
307.4890786614
 20
-87.1044864227
 10
308.1761198174
 20
-88.6822426001
 10
309.0056843274
 20
-90.1033266256
 10
309.97179516
 20
-91.3574995562
 10
311.0674914646
 20
-92.4357250473
 10
312.2848787242
 20
-93.3302344594
 10
313.6151856357
 20
-94.0345828317
 10
315.0488273072
 20
-94.5436953182
 10
316.5754743178
 20
-94.8539037515
 10
318.1841271407
 20
-94.962973073
 10
319.8631953955
 20
-94.8701174356
 10
321.6005813569
 20
-94.5760058663
 10
323.3837671192
 20
-94.0827574457
 10
325.1999047882
 20
-93.3939260399
 10
327.0359090504
 20
-92.5144746952
 10
328.8785514529
 20
-91.4507398784
 10
330.714555715
 20
-90.2103858234
 10
332.530693384
 20
-88.8023493096
 10
334.3138791464
 20
-87.2367752723
 10
336.0512651078
 20
-85.5249437083
 10
337.7303333625
 20
-83.6791884033
 10
339.3389861854
 20
-81.7128080665
 10
340.865633196
 20
-79.6399705133
 10
342.2992748676
 20
-77.4756105858
 10
343.6295817791
 20
-75.2353225468
 10
344.8469690387
 20
-72.9352477231
 10
345.9426653433
 20
-70.5919582064
 10
346.9087761759
 20
-68.2223374514
 10
347.7383406859
 20
-65.8434586299
 10
348.4253818419
 20
-63.4724616184
 10
348.9649494967
 20
-61.1264295046
 10
349.3531560529
 20
-58.8222655037
 10
349.5872044734
 20
-56.5765711701
 10
349.6654084341
 20
-54.405526783
  0
LWPOLYLINE
  5
CF
330
1F
100
AcDbEntity
  8
0
  6
Continuous
 62
     7
370
    25
100
AcDbPolyline
 90
       83
 70
   128
 43
0.0
 10
538.6750510452
 20
-82.4491454241
 10
538.5972463497
 20
-80.0602701397
 10
538.3642888521
 20
-77.595582336
 10
537.9775456395
 20
-75.0695457811
 10
537.439286275
 20
-72.496984262
 10
536.7526694785
 20
-69.8929945926
 10
535.9217245905
 20
-67.2728580196
 10
534.9513279258
 20
-64.6519505464
 10
533.8471741581
 20
-62.0456527002
 10
532.6157429006
 20
-59.469259273
 10
531.2642606817
 20
-56.937889566
 10
529.8006585364
 20
-54.4663986632
 10
528.2335254641
 20
-52.0692902558
 10
526.5720580247
 20
-49.7606315293
 10
524.8260063699
 20
-47.553970611
 10
523.005617025
 20
-45.4622570647
 10
521.1215727587
 20
-43.4977658971
 10
519.1849298917
 20
-41.6720255236
 10
517.2070534145
 20
-39.9957501147
 10
515.1995502928
 20
-38.4787767209
 10
513.1742013531
 20
-37.1300075454
 10
511.1428921483
 20
-35.9573577021
 10
509.1175432086
 20
-34.9677087664
 10
507.1100400869
 20
-34.1668683919
 10
505.1321636098
 20
-33.5595362282
 10
503.1955207428
 20
-33.1492763421
 10
501.3114764764
 20
-32.9384963017
 10
499.4910871316
 20
-32.9284330481
 10
497.7450354768
 20
-33.1191456364
 10
496.0835680374
 20
-33.5095148893
 10
494.516434965
 20
-34.0972499649
 10
493.0528328197
 20
-34.8789018
 10
491.7013506008
 20
-35.8498833509
 10
490.4699193434
 20
-37.0044965116
 10
489.3657655756
 20
-38.3359655531
 10
488.395368911
 20
-39.8364768857
 10
487.5644240229
 20
-41.497224912
 10
486.8778072264
 20
-43.3084637024
 10
486.3395478619
 20
-45.2595641875
 10
485.9528046494
 20
-47.3390765337
 10
485.7198471517
 20
-49.5347973357
 10
485.6420424562
 20
-51.8338412308
 10
485.7198471517
 20
-54.2227165152
 10
485.9528046494
 20
-56.6874043189
 10
486.3395478619
 20
-59.2134408738
 10
486.8778072264
 20
-61.7860023929
 10
487.5644240229
 20
-64.3899920623
 10
488.395368911
 20
-67.0101286353
 10
489.3657655756
 20
-69.6310361085
 10
490.4699193434
 20
-72.2373339547
 10
491.7013506008
 20
-74.8137273819
 10
493.0528328197
 20
-77.3450970889
 10
494.516434965
 20
-79.8165879918
 10
496.0835680374
 20
-82.2136963991
 10
497.7450354768
 20
-84.5223551256
 10
499.4910871316
 20
-86.7290160439
 10
501.3114764764
 20
-88.8207295902
 10
503.1955207428
 20
-90.7852207578
 10
505.1321636098
 20
-92.6109611313
 10
507.1100400869
 20
-94.2872365403
 10
509.1175432086
 20
-95.804209934
 10
511.1428921483
 20
-97.1529791095
 10
513.1742013531
 20
-98.3256289528
 10
515.1995502928
 20
-99.3152778885
 10
517.2070534145
 20
-100.116118263
 10
519.1849298917
 20
-100.7234504267
 10
521.1215727587
 20
-101.1337103128
 10
523.005617025
 20
-101.3444903532
 10
524.8260063699
 20
-101.3545536068
 10
526.5720580247
 20
-101.1638410185
 10
528.2335254641
 20
-100.7734717656
 10
529.8006585364
 20
-100.18573669
 10
531.2642606817
 20
-99.4040848549
 10
532.6157429006
 20
-98.433103304
 10
533.8471741581
 20
-97.2784901433
 10
534.9513279258
 20
-95.9470211018
 10
535.9217245905
 20
-94.4465097693
 10
536.7526694785
 20
-92.7857617429
 10
537.439286275
 20
-90.9745229525
 10
537.9775456395
 20
-89.0234224675
 10
538.3642888521
 20
-86.9439101213
 10
538.5972463497
 20
-84.7481893192
 10
538.6750510452
 20
-82.4491454241
  0
LWPOLYLINE
  5
D0
330
1F
100
AcDbEntity
  8
0
  6
Continuous
 62
     7
370
    25
100
AcDbPolyline
 90
       75
 70
   128
 43
0.0
 10
533.8667249332
 20
-79.6733578439
 10
533.7885209725
 20
-77.5023134568
 10
533.554472552
 20
-75.2566191232
 10
533.1662659958
 20
-72.9524551224
 10
532.626698341
 20
-70.6064230086
 10
531.939657185
 20
-68.2354259971
 10
531.110092675
 20
-65.8565471756
 10
530.1439818424
 20
-63.4869264206
 10
529.0482855378
 20
-61.1436369039
 10
527.8308982782
 20
-58.8435620801
 10
526.5005913667
 20
-56.6032740412
 10
525.0669496951
 20
-54.4389141137
 10
523.5403026845
 20
-52.3660765605
 10
521.9316498616
 20
-50.3996962237
 10
520.2525816069
 20
-48.5539409187
 10
518.5151956455
 20
-46.8421093547
 10
516.7320098831
 20
-45.2765353173
 10
514.9158722141
 20
-43.8684988035
 10
513.079867952
 20
-42.6281447485
 10
511.2372255495
 20
-41.5644099318
 10
509.4012212873
 20
-40.684958587
 10
507.5850836183
 20
-39.9961271813
 10
505.801897856
 20
-39.5028787607
 10
504.0645118946
 20
-39.2087671914
 10
502.3854436398
 20
-39.115911554
 10
500.7767908169
 20
-39.2249808754
 10
499.2501438063
 20
-39.5351893088
 10
497.8165021347
 20
-40.0443017952
 10
496.4861952233
 20
-40.7486501676
 10
495.2688079637
 20
-41.6431595797
 10
494.1731116591
 20
-42.7213850707
 10
493.2070008264
 20
-43.9755580014
 10
492.3774363165
 20
-45.3966420269
 10
491.6903951605
 20
-46.9743982043
 10
491.1508275057
 20
-48.6974587642
 10
490.7626209495
 20
-50.5534090157
 10
490.5285725289
 20
-52.5288767949
 10
490.4503685683
 20
-54.609628811
 10
490.5285725289
 20
-56.7806731981
 10
490.7626209495
 20
-59.0263675317
 10
491.1508275057
 20
-61.3305315326
 10
491.6903951605
 20
-63.6765636463
 10
492.3774363165
 20
-66.0475606579
 10
493.2070008264
 20
-68.4264394793
 10
494.1731116591
 20
-70.7960602343
 10
495.2688079637
 20
-73.139349751
 10
496.4861952233
 20
-75.4394245748
 10
497.8165021347
 20
-77.6797126137
 10
499.2501438063
 20
-79.8440725412
 10
500.7767908169
 20
-81.9169100944
 10
502.3854436398
 20
-83.8832904312
 10
504.0645118946
 20
-85.7290457363
 10
505.801897856
 20
-87.4408773003
 10
507.5850836183
 20
-89.0064513376
 10
509.4012212873
 20
-90.4144878514
 10
511.2372255495
 20
-91.6548419064
 10
513.079867952
 20
-92.7185767231
 10
514.9158722141
 20
-93.5980280679
 10
516.7320098831
 20
-94.2868594736
 10
518.5151956455
 20
-94.7801078942
 10
520.2525816069
 20
-95.0742194635
 10
521.9316498616
 20
-95.167075101
 10
523.5403026845
 20
-95.0580057795
 10
525.0669496951
 20
-94.7477973461
 10
526.5005913667
 20
-94.2386848597
 10
527.8308982782
 20
-93.5343364873
 10
529.0482855378
 20
-92.6398270752
 10
530.1439818424
 20
-91.5616015842
 10
531.110092675
 20
-90.3074286536
 10
531.939657185
 20
-88.8863446281
 10
532.626698341
 20
-87.3085884507
 10
533.1662659958
 20
-85.5855278908
 10
533.554472552
 20
-83.7295776392
 10
533.7885209725
 20
-81.75410986
 10
533.8667249332
 20
-79.6733578439
  0
ENDSEC
  0
SECTION
  2
OBJECTS
  0
DICTIONARY
  5
C
330
0
100
AcDbDictionary
281
     1
  3
ACAD_GROUP
350
D
  3
ACAD_LAYOUT
350
1A
  3
ACAD_MLINESTYLE
350
17
  3
ACAD_PLOTSETTINGS
350
19
  3
ACAD_PLOTSTYLENAME
350
E
  3
ACAD_SCALELIST
350
47
  3
DWGPROPS
350
D1
  0
DICTIONARY
  5
D
102
{ACAD_REACTORS
330
C
102
}
330
C
100
AcDbDictionary
281
     1
  0
DICTIONARY
  5
1A
102
{ACAD_REACTORS
330
C
102
}
330
C
100
AcDbDictionary
281
     1
  3
Layout1
350
1E
  3
Layout2
350
26
  3
Model
350
22
  0
DICTIONARY
  5
17
102
{ACAD_REACTORS
330
C
102
}
330
C
100
AcDbDictionary
281
     1
  3
Standard
350
18
  0
DICTIONARY
  5
19
102
{ACAD_REACTORS
330
C
102
}
330
C
100
AcDbDictionary
281
     1
  0
ACDBDICTIONARYWDFLT
  5
E
102
{ACAD_REACTORS
330
C
102
}
330
C
100
AcDbDictionary
281
     1
  3
Normal
350
F
100
AcDbDictionaryWithDefault
340
F
  0
DICTIONARY
  5
47
102
{ACAD_REACTORS
330
C
102
}
330
C
100
AcDbDictionary
281
     1
  3
A0
350
48
  3
A1
350
49
  3
A2
350
4A
  3
A3
350
4B
  3
A4
350
4C
  3
A5
350
4D
  3
A6
350
4E
  3
A7
350
4F
  3
A8
350
50
  3
A9
350
51
  3
B0
350
52
  3
B1
350
53
  3
B2
350
54
  3
B3
350
55
  3
B4
350
56
  3
B5
350
57
  3
B6
350
58
  3
B7
350
59
  3
B8
350
5A
  3
B9
350
5B
  3
C0
350
5C
  3
C1
350
5D
  3
C2
350
5E
  3
C3
350
5F
  3
C4
350
60
  3
C5
350
61
  3
C6
350
62
  3
C7
350
63
  3
C8
350
64
  3
C9
350
65
  3
D0
350
66
  3
D1
350
67
  3
D2
350
68
  0
XRECORD
  5
D1
102
{ACAD_REACTORS
330
C
102
}
330
C
100
AcDbXrecord
280
     1
  1
DWGPROPS COOKIE
  2

  3

  4

  6

  7

  8
b.kav
  9

300
=
301
=
302
=
303
=
304
=
305
=
306
=
307
=
308
=
309
=
 40
0.0
 41
2460608.405286007
 42
2460608.405286007
  1

 90
        0
  0
LAYOUT
  5
1E
102
{ACAD_REACTORS
330
1A
102
}
330
1A
100
AcDbPlotSettings
  1

  2
none_device
  4

  6

 40
0.0
 41
0.0
 42
0.0
 43
0.0
 44
0.0
 45
0.0
 46
0.0
 47
0.0
 48
0.0
 49
0.0
140
0.0
141
0.0
142
1.0
143
1.0
 70
   688
 72
     1
 73
     0
 74
     5
  7

 75
    16
147
1.0
148
0.0
149
0.0
100
AcDbLayout
  1
Layout1
 70
     1
 71
     1
 10
0.0
 20
0.0
 11
420.0
 21
297.0
 12
0.0
 22
0.0
 32
0.0
 14
1.0000000000E+20
 24
1.0000000000E+20
 34
1.0000000000E+20
 15
-1.0000000000E+20
 25
-1.0000000000E+20
 35
-1.0000000000E+20
146
0.0
 13
0.0
 23
0.0
 33
0.0
 16
1.0
 26
0.0
 36
0.0
 17
0.0
 27
1.0
 37
0.0
 76
     0
330
1B
  0
LAYOUT
  5
26
102
{ACAD_REACTORS
330
1A
102
}
330
1A
100
AcDbPlotSettings
  1

  2
none_device
  4

  6

 40
0.0
 41
0.0
 42
0.0
 43
0.0
 44
0.0
 45
0.0
 46
0.0
 47
0.0
 48
0.0
 49
0.0
140
0.0
141
0.0
142
1.0
143
1.0
 70
   688
 72
     1
 73
     0
 74
     5
  7

 75
    16
147
1.0
148
0.0
149
0.0
100
AcDbLayout
  1
Layout2
 70
     1
 71
     2
 10
0.0
 20
0.0
 11
0.0
 21
0.0
 12
0.0
 22
0.0
 32
0.0
 14
0.0
 24
0.0
 34
0.0
 15
0.0
 25
0.0
 35
0.0
146
0.0
 13
0.0
 23
0.0
 33
0.0
 16
1.0
 26
0.0
 36
0.0
 17
0.0
 27
1.0
 37
0.0
 76
     0
330
23
  0
LAYOUT
  5
22
102
{ACAD_REACTORS
330
1A
102
}
330
1A
100
AcDbPlotSettings
  1

  2
none_device
  4
Letter_(8.50_x_11.00_Inches)
  6

 40
6.35
 41
6.35
 42
6.35000508
 43
6.35000508
 44
215.9
 45
279.4
 46
0.0
 47
0.0
 48
0.0
 49
0.0
140
0.0
141
0.0
142
1.0
143
1.0
 70
  1712
 72
     1
 73
     0
 74
     0
  7

 75
     0
147
1.0
148
0.0
149
0.0
100
AcDbLayout
  1
Model
 70
     1
 71
     0
 10
0.0
 20
0.0
 11
279.4
 21
215.9
 12
0.0
 22
0.0
 32
0.0
 14
0.0
 24
0.0
 34
0.0
 15
279.4
 25
215.9
 35
0.0
146
0.0
 13
0.0
 23
0.0
 33
0.0
 16
1.0
 26
0.0
 36
0.0
 17
0.0
 27
1.0
 37
0.0
 76
     0
330
1F
331
29
  0
MLINESTYLE
  5
18
102
{ACAD_REACTORS
330
17
102
}
330
17
100
AcDbMlineStyle
  2
Standard
 70
     0
  3

 62
   256
 51
90.0
 52
90.0
 71
     2
 49
0.5
 62
   256
  6
BYLAYER
 49
-0.5
 62
   256
  6
BYLAYER
  0
ACDBPLACEHOLDER
  5
F
102
{ACAD_REACTORS
330
E
102
}
330
E
  0
SCALE
  5
48
102
{ACAD_REACTORS
330
47
102
}
330
47
100
AcDbScale
 70
     0
300
1:1
140
1.0
141
1.0
290
     1
  0
SCALE
  5
49
102
{ACAD_REACTORS
330
47
102
}
330
47
100
AcDbScale
 70
     0
300
1:2
140
1.0
141
2.0
290
     0
  0
SCALE
  5
4A
102
{ACAD_REACTORS
330
47
102
}
330
47
100
AcDbScale
 70
     0
300
1:4
140
1.0
141
4.0
290
     0
  0
SCALE
  5
4B
102
{ACAD_REACTORS
330
47
102
}
330
47
100
AcDbScale
 70
     0
300
1:5
140
1.0
141
5.0
290
     0
  0
SCALE
  5
4C
102
{ACAD_REACTORS
330
47
102
}
330
47
100
AcDbScale
 70
     0
300
1:8
140
1.0
141
8.0
290
     0
  0
SCALE
  5
4D
102
{ACAD_REACTORS
330
47
102
}
330
47
100
AcDbScale
 70
     0
300
1:10
140
1.0
141
10.0
290
     0
  0
SCALE
  5
4E
102
{ACAD_REACTORS
330
47
102
}
330
47
100
AcDbScale
 70
     0
300
1:16
140
1.0
141
16.0
290
     0
  0
SCALE
  5
4F
102
{ACAD_REACTORS
330
47
102
}
330
47
100
AcDbScale
 70
     0
300
1:20
140
1.0
141
20.0
290
     0
  0
SCALE
  5
50
102
{ACAD_REACTORS
330
47
102
}
330
47
100
AcDbScale
 70
     0
300
1:30
140
1.0
141
30.0
290
     0
  0
SCALE
  5
51
102
{ACAD_REACTORS
330
47
102
}
330
47
100
AcDbScale
 70
     0
300
1:40
140
1.0
141
40.0
290
     0
  0
SCALE
  5
52
102
{ACAD_REACTORS
330
47
102
}
330
47
100
AcDbScale
 70
     0
300
1:50
140
1.0
141
50.0
290
     0
  0
SCALE
  5
53
102
{ACAD_REACTORS
330
47
102
}
330
47
100
AcDbScale
 70
     0
300
1:100
140
1.0
141
100.0
290
     0
  0
SCALE
  5
54
102
{ACAD_REACTORS
330
47
102
}
330
47
100
AcDbScale
 70
     0
300
2:1
140
2.0
141
1.0
290
     0
  0
SCALE
  5
55
102
{ACAD_REACTORS
330
47
102
}
330
47
100
AcDbScale
 70
     0
300
4:1
140
4.0
141
1.0
290
     0
  0
SCALE
  5
56
102
{ACAD_REACTORS
330
47
102
}
330
47
100
AcDbScale
 70
     0
300
8:1
140
8.0
141
1.0
290
     0
  0
SCALE
  5
57
102
{ACAD_REACTORS
330
47
102
}
330
47
100
AcDbScale
 70
     0
300
10:1
140
10.0
141
1.0
290
     0
  0
SCALE
  5
58
102
{ACAD_REACTORS
330
47
102
}
330
47
100
AcDbScale
 70
     0
300
100:1
140
100.0
141
1.0
290
     0
  0
SCALE
  5
59
102
{ACAD_REACTORS
330
47
102
}
330
47
100
AcDbScale
 70
     0
300
1/128" = 1'-0"
140
0.0078125
141
12.0
290
     0
  0
SCALE
  5
5A
102
{ACAD_REACTORS
330
47
102
}
330
47
100
AcDbScale
 70
     0
300
1/64" = 1'-0"
140
0.015625
141
12.0
290
     0
  0
SCALE
  5
5B
102
{ACAD_REACTORS
330
47
102
}
330
47
100
AcDbScale
 70
     0
300
1/32" = 1'-0"
140
0.03125
141
12.0
290
     0
  0
SCALE
  5
5C
102
{ACAD_REACTORS
330
47
102
}
330
47
100
AcDbScale
 70
     0
300
1/16" = 1'-0"
140
0.0625
141
12.0
290
     0
  0
SCALE
  5
5D
102
{ACAD_REACTORS
330
47
102
}
330
47
100
AcDbScale
 70
     0
300
3/32" = 1'-0"
140
0.09375
141
12.0
290
     0
  0
SCALE
  5
5E
102
{ACAD_REACTORS
330
47
102
}
330
47
100
AcDbScale
 70
     0
300
1/8" = 1'-0"
140
0.125
141
12.0
290
     0
  0
SCALE
  5
5F
102
{ACAD_REACTORS
330
47
102
}
330
47
100
AcDbScale
 70
     0
300
3/16" = 1'-0"
140
0.1875
141
12.0
290
     0
  0
SCALE
  5
60
102
{ACAD_REACTORS
330
47
102
}
330
47
100
AcDbScale
 70
     0
300
1/4" = 1'-0"
140
0.25
141
12.0
290
     0
  0
SCALE
  5
61
102
{ACAD_REACTORS
330
47
102
}
330
47
100
AcDbScale
 70
     0
300
3/8" = 1'-0"
140
0.375
141
12.0
290
     0
  0
SCALE
  5
62
102
{ACAD_REACTORS
330
47
102
}
330
47
100
AcDbScale
 70
     0
300
1/2" = 1'-0"
140
0.5
141
12.0
290
     0
  0
SCALE
  5
63
102
{ACAD_REACTORS
330
47
102
}
330
47
100
AcDbScale
 70
     0
300
3/4" = 1'-0"
140
0.75
141
12.0
290
     0
  0
SCALE
  5
64
102
{ACAD_REACTORS
330
47
102
}
330
47
100
AcDbScale
 70
     0
300
1" = 1'-0"
140
1.0
141
12.0
290
     0
  0
SCALE
  5
65
102
{ACAD_REACTORS
330
47
102
}
330
47
100
AcDbScale
 70
     0
300
1-1/2" = 1'-0"
140
1.5
141
12.0
290
     0
  0
SCALE
  5
66
102
{ACAD_REACTORS
330
47
102
}
330
47
100
AcDbScale
 70
     0
300
3" = 1'-0"
140
3.0
141
12.0
290
     0
  0
SCALE
  5
67
102
{ACAD_REACTORS
330
47
102
}
330
47
100
AcDbScale
 70
     0
300
6" = 1'-0"
140
6.0
141
12.0
290
     0
  0
SCALE
  5
68
102
{ACAD_REACTORS
330
47
102
}
330
47
100
AcDbScale
 70
     0
300
1'-0" = 1'-0"
140
12.0
141
12.0
290
     0
  0
ENDSEC
  0
EOF
